Autoscroll Speed
Start AutoscrollingStop Autoscrolling Decrease Autoscrolling speed1Increase Autoscrolling speed

F-Stop Blues (J.O.A.T. version) by Jack Johnson

Tabbed by Matt Masarik


intro/chorus
(will alternate between the two different riffs for the B chords)
-----------------------------------------------------------------
-----------------------------------------------------------------
------9----9------4---4------------------------------------------
------9h11-9------4h6-4--------7---------------------------------
---11-----------6----------7s9---9-------7-----------------------
-0------------4----------5---------7-7h9---9---------------------


-----------------------------------------------------------------
-----------------------------------------------------------------
------9----9------4---4------------------------------------------
------9h11-9------4h6-4--------7----------9----------------------
---11-----------6----------7s9---9---9s11---11-------------------
-0------------4----------5---------7-----------0-----------------


verse
-----------------------------------------------------------------
-----------------------------------------------------------------
---4-------4---------2---------2---------------------------------
---4h6---4---4---2h4---4---2h4---4-------------------------------
-------2-------0---------0---------------------------------------
-0---------------------------------------------------------------


solo
-----------------------------------------------------------------
-----------------------------------------------------------------
-----9--------11-13-11-9------9----------------------------------
-s11---11-----------------s11---11-------------------------------
----------11-----------------------11--9-11-9-7------------------
-----------------------------------------------------------------


lead into chorus from bridge
-----------------------------------------------------------------
-----------------------------------------------------------------
-----4---4--4---4---4--------------------------------------------
-----4h6-4--4h6-4h6-4----7------9--------------------------------
---6------------------------s11---11-----------------------------
-4---------------------5-------------0---------------------------