Autoscroll Speed
Start AutoscrollingStop Autoscrolling Decrease Autoscrolling speed1Increase Autoscrolling speed

Dreams be Dreams by Jack Johnson

Tabbed by Mike Horowitz
-------------------------------------------------
-------------------------------------------------
-------------------------------------------------
-------------------------------------------------
-----9-X---0---5--X----0----2-X--0----4----------
--10 --------7------------3---------3/5----------

I was looking at the Jack Johnson tab book today at my local guitar shop (didn't buy it cause your site is so good) but I did notice that the tab for 'Dreams be Dreams' was different in the book than how I learned it off your site... this is all I remember, I think your intro tab was good.

 

 

Tabbed by Reed Gallogly with corrections by Matt Lehtonen


Intro               Fill
e--7/10--\7--5/7\5-|--7----7-----------|
b--7/10--\7--5/7\5-|--7h10-7-9-7---7---|
g------------------|-----------7h9-7---|
d------------------|-----------------9-|
a------------------|-------------------|
e------------------|-------------------|
                    play fill 3 times
                    and play next
                    part into verse


Transition to Verse
e------------------------------------------------
b------------------------------------------------
g--7---7-----------------------------------------
d--7h9-7h9-7-------------------------------------
a------------9-7------0--------------------------
e----------------10-7----------------------------


  Verse D   Bm chord  G chord   A chord
e---------|---------|---------|-----------|------
b---------|---------|---------|-----------|------
g---------|---------|---------|-----------|------
d------4--|------0--|---------|-----------|------
a--0-5----|--0-2----|------2--|--------4--|------
e---------|---------|--0-3----|--3-3/5----|------

She's just waiting for the summertime
when the weathers fine
and she could hitch a ride out of town
and so far away
from that low down, good for nothing
mistake making fool with excuses like

(strum for this part)

"baby that was a long time ago"
but that's just a euphemism
if you want the truth he was out of control
but a short time's a long time
when your mind just won't let it go

(play fill 3 times again and then play transition into solo)


Solo
e------------------------------------------------
b--------------7---7-----------------------------
g----------7---7h9-7---7---7---------------------
d--/7--7h9---9-------9-7h9-7---------------------
a----------------------------9-7-----------------
e------------------------------------------------


e--------------7----7----------------------------
b--------------7h10-7-7-7-0----------------------
g----------7----------9-7-0----------------------
d---/7-7h9---9-----------------------------------
a------------------------------------------------
e------------------------------------------------

Well summer came along and then it was gone
and so was she but not from him
cuz he followed her just to let her know
her dreams are dreams
and all this living is so much harder than it seems
but girl don't let your dreams be dreams
you know this living is not so hard as it seems
don't let your dreams be dreams