Autoscroll Speed
Start AutoscrollingStop Autoscrolling Decrease Autoscrolling speed1Increase Autoscrolling speed

Tomorrow Morning by Jack Johnson

 

Corrections sent by Matthew Peter Masarik

The chords for the chorus should be D, Bm7, Em7, A7...the F#m is only in the verse

 

 

Tabbed by: Adam Pfister
Corrected by: Reed Gallogly

Intro- "Well, that's alright.."

-|-------x-2--x--------x-0--x-------------------3---------x-2-|-----------------
-|-------x-3--x--------x-2--x-------------------3---------x-3-|-----------------
-|-------x-2--x------2-x-2--x-------------------4---------x-2-|-----------------
-|---0-0-x-0--x--0h4---x-2--x--4p2-0------------5-------0-x-0-|-----------------
-|0h2----x-x--x--------x-0--x--------3p2-0------5---0h2---x-x-|-----------------
-|-------x-x--x--------x-x--x-----------------2/3-3-------x-x-|-----------------

Chords Used:

   D     F#m  Em7   A7   G
-|-5-----2----7-----5----3---
-|-7-----2----8-----5----3---
-|-7-----3----7-----6----4---
-|-7-----4----9-----5----5---
-|-5-----4----7-----7----5---
-|-x-----2----x-----5----3---

Intro:
well that's alright
and that's alright
2000 miles we stood
and that's alright

and that's alright
if that's alright
I'll see you in the morning
if that's alright

Verse:
 D                    F#m
what would you do if I wrote you a song
           Em7                  A7
would you give me some lovin when I get home
           D                F#m
would you be mad at me if I had a hard time
          Em7                    G
gettin a hold of you you know I try all the time

    D       F#m      Em7
and I think that
                A7                  D
you don't know anybody that could be
    F#m    Em7
so bad
       A7
but if you did
                   D
you'd be wonderin where
     F#m
I'm at
        Em7               A7                  D  F#m  Em7  A7
well I'll be home when tomorrow morning comes


(still not perfect, so send corrections if you can)
e---------------------------------------------------------------------------------------------
b---------------------------------------------------------------------------------------------
g-------9p7-----------------------11--14--11---------------------------5h7--------------------
d--/7-9-----9---------------/12---------------------7------------------5h7--------------------
a------------------------------------------------/9---9-7--------------5----------------------
E---------------------------------------------------------10--2-1-0---------------------------

what would you do if I sang you this song
the connection is bad but that's only the phone
'cause when my words kiss your ear
I'll be right there
the message is long
but this is your song

and I think that
you don't know anybody that could be
so bad
but if you did
you'd be wonderin where
I'm at
well I'll be home when tomorrow morning...

and that's alright
'cause I'll be home when tomorrow morning...
and that's allllright
'cause I'll be home when tomorrow morning comes.

End on:
--x--
--x--
--7--
--7--
--5--
--x--