Autoscroll Speed
Start AutoscrollingStop Autoscrolling Decrease Autoscrolling speed1Increase Autoscrolling speed

Updated version (2/22/05)

 

VERSE 1                                       D*   Dm   A   D  Dm7 B
D*            Dm                           ---------------------------          
It wasn't you...it wasn't me               e  10   10   5   5   5  7
      A                                    B  10   10   5   7   6  7
My friend...                               G  11   10   6   7   5  8
D            Dm7                           D  12   12   7   7   7  9
I don't know...but it feels like           A  12   12   7   5   5  9
     A                                     E  10   10   5   5   5  7
The end   

CHORUS
 
F#             A
Why don't 'cha tell me
F#             A
Why don't 'cha tell me
F#             A
Why don't 'cha tell me
              B               D
What went wrong...what went wrong
Dm7                                  A
Don't 'cha think we can work it out tonight...

VERSE 2
D              Dm7
Where'd you go...it's where we've grown don't tell me 
      A
It's gone
D                            Dm7
It's just a bend in the road...but this road always 
     A
Goes on

CHORUS

(SOLO)
[---------------------------------5h7-5---5-5-----------------]
[-------5-5h7-5h7---------------5-------7---7-5---------------]
[---4h6-----------6h4---4---4h6-------------------6h4---4-----]
[-7-------------------7---7---------------------------7---7---]
[-------------------------------------------------------------]
[-------------------------------------------------------------]


[-------------------5-5h7-5-----------------------------------]
[-----5-5h7-5h7-5h7---------7-5-5h7-5-------------------------]
[-4h6---------------------------------6-4---------------------]
[-----------------------------------------7-------------------]
[-------------------------------------------------------------]
[-------------------------------------------------------------]
(Note: Every note is right, listen to the song to find out when the 
	fist part comes in and for timing, it's kinda subtle.)



D                      Dm7
You don't wanna see me...you don't wanna talk on 
          A
The telephone
D               Dm7
I wanna see you...its just that I don't wanna see 
    A
You go (I wanna see you go...)

CHORUS
F#             A
Why don't 'cha tell me
F#             A
Why don't 'cha tell me
F#             A
Why don't 'cha tell me
              B               D
What went wrong...what went wrong
Dm7                                  
Don't 'cha think we can work it out

 

Bend in the Road (2)

 

Tabbed by Aaron Price

donavonfTab.com.au.tt


Chords:
   D     Dm    A     F# 
|--5--|--6--|--5--|--2--|
|--7--|--6--|--5--|--2--|
|--7--|--7--|--6--|--3--|
|--7--|--7--|--7--|--4--|
|--5--|--5--|--7--|--4--|
|-----|-----|--5--|--2--|

D                 Dm                        A
 It wasn't it you,  It wasn't it me my friend
D                Dm                        A
 And I don't know  but it feels like the end

F#            A
Why don't you tell me
F#            A
Why don't you tell me
F#            A
Why don't you tell me
D                       Dm      A
What went wrong what went wrong 

© Copyright donavonfTab.com.au.tt