Autoscroll Speed
Start AutoscrollingStop Autoscrolling Decrease Autoscrolling speed1Increase Autoscrolling speed

Tabbed by: Cheehan Leung 


Chords Used

     C   C\B  Am   F    Fm    E    D    G
e|---0----0----0----1----1----0----2----3---|      
B|---1----1----1----1----1----0----3----0---|    
G|---0----0----2----2----1----1----2----0---| 
D|---2----2----2----3----3----2----0----0---| 
A|---3----2----0----3----3----2----0----2---|        
E|---0----0----0----1----1----0----0----3---|        

Intro
C   C/B   Am   F   Fm

Verse
C                   C/B
The moon comes up and the moon goes down
Am
Another sleepless night another sleepless town
F              Fm
But I got you, yeah I got you
C                C/B 
Whenever I think about what I lost
Am
I change my mind to what I still got
F                Fm 
Cause I got you, yeah I got you

Chorus
C
Well you can call me papa
E
And I'll call you baby
Am                         D        
Don't forget your momma's my baby too
F                Fm
Wherever you go, whatever you do
C                G
I will be there, be there for you

Soon enough you know I'll be around

but that ain't soon enough cause it ain't right now

I need you, I said I got you

When you close your eyes and you drift to sleep

from time to time I hope you run into me

I'm thinking of you, I hope you see me too

 

Well you can call me papa

and I'll call you baby

don't forget your momma's my baby too

wherever you go, whatever you do

I will be there, I'll be there for you

 

Well you can call me papa

and I'll call you baby

don't forget your momma's my baby too

wherever you go, whatever you do

I will be there, I'll be there for you



Solo

E ||---------------------------------------------------------------------|
B ||-5/6-5p3-5/6-5p3-5/6-5p3----5-6/8-6-5-3-5-3---------4b~-b4-----------|
G ||--------------------------------------------5---2-5--------5-7p5-2-5-|
D ||---------------------------------------------------------------------|
A ||---------------------------------------------------------------------|
E ||---------------------------------------------------------------------|

E ||-----------------0-----1--0-1p0---0-1/3------------------------------|
B ||-----1-----3--------------------3--------6-6p5p3-5-3-3p1---1-3b------|
G ||---------------------------------------------------------2-----------|
D ||-0h2---0h2---0h2---0h2-----------------------------------------------|
A ||---------------------------------------------------------------------|
E ||---------------------------------------------------------------------|

E ||-----------------0-1/3-3-3/5-5-5/8-8-10b-8----8-8----8----8--15b~~---|
B ||-3p1---1-----1-3---------------------------10----------10------------|
G ||-----2-----2---------------------------------------------------------|
D ||---------------------------------------------------------------------|
A ||---------------------------------------------------------------------|
E ||---------------------------------------------------------------------|

E ||-b15--15-12--------------------------------------------------8-8~~~--|
B ||-(15)-------15b-15-13-10-13-10-8-10-8---8---------------8/10---------|
G ||--------------------------------------9---9/7-5---5-7/9--------------|
D ||------------------------------------------------7--------------------|
A ||---------------------------------------------------------------------|
E ||---------------------------------------------------------------------|

E ||----8-10-8-10b--15-11b-8-10--8-10p8----8-----------------------------|
B ||-10---------------------------------10-------------------------------|
G ||---------------------------------------------------------------------|
D ||---------------------------------------------------------------------|
A ||---------------------------------------------------------------------|
E ||---------------------------------------------------------------------|

E ||---------------------------------------------------------------------|
B ||-5/6-5p3-------------5-6p5-------------------------------------------|
G ||---------5-7p5---5-7-------7-7b~~---5-7~~~---------------------------|
D ||---------------7-----------------------------------------------------|
A ||---------------------------------------------------------------------|
E ||---------------------------------------------------------------------|


 


Call me Papa (2) Tabbed by Micka Reinmuth donavonfTab.com.au.tt Chords: C C7m9 Am G F Fm |--0--|--0--|--0--|--3--|--1--|--1--| |--1--|--1--|--1--|--0--|--1--|--1--| |--0--|--0--|--2--|--0--|--2--|--1--| |--2--|--0--|--2--|--0--|--3--|--3--| |--3--|--2--|--0--|--2--|--3--|--3--| |-----|-----|-----|--3--|--1--|--1--| Verse: C C7m9 Am G F Fm Chorus: C You can Call Me Papa E And I'll call you baby Am C D Don't forget your mama's , My baby too F Fm Wherever you go, Whatever you do C G I will be there, be there for you © Copyright donavonfTab.com.au.tt