Autoscroll Speed
Start AutoscrollingStop Autoscrolling Decrease Autoscrolling speed1Increase Autoscrolling speed

Tabbed by Aaron Price

donavonfTab.com.au.tt


Verse: 
  A   D   A   Dm    F#  B   E7
--5---5---5---5-----2---7---x---
--5---7---5---6-----2---7---5---
--6---7---6---7-----3---8---7---
--7---7---7---7-----4---9---6---
--7---5---7---5-----4---9---7---
--5---5---5---5-----2---7---x---
I don't care what...don't really bother me


Chorus: 
  A   F#  B   E7
--5---2---7---x---
--5---2---7---5---
--6---3---8---7---
--7---4---9---6---
--7---4---9---7---
--5---2---7---x---
I said dream on...


Bridge:
  A   G#  G   F     B   E7
--5---4---3---2-----7---x---
--5---4---3---2-----7---5---
--6---5---4---3-----8---7---
--7---6---5---4-----9---6---
--7---6---5---4-----9---7---
--5---4---3---2-----7---x---
Dreams cant always be...

© Copyright donavonfTab.com.au.tt