Autoscroll Speed
Start AutoscrollingStop Autoscrolling Decrease Autoscrolling speed1Increase Autoscrolling speed

Tabbed by: Gareth Orchard 

Tuning: standard tuning

Intro/Verse: (fingerpick)
e|----------3-----2--2-------0--------2------------------------------|
B|----------3-----3--3----0--------3---------------------------------|
G|----------0-----0-------0--------0---------------------------------|
D|-------------------------------------------------------------------|
A|---------------------------------2---------------------------------|
E|----3-----------2-------0------------------------------------------|

e|---------3------2--2------3--3----3--3-----------------------------|
B|---------3---------3------3--3----3--3-----------------------------|
G|---------0---------2------0--0----0--0-----------------------------|
D|----------------0--------------------------------------------------|
A|-----3-------------------------------------------------------------|
E|--------------------------3-----3-3--------0-----------------------|

Chorus: (strum)
e|-------0-----3-----0----3-----0----3----0----0---------------------|
B|-------1-----3-----1----3-----1----3----3----3---------------------|
G|-------0-----0-----0----0-----0----0----2----2---------------------|
D|-------2-----0-----2----0-----2----0----0----0---------------------|
A|-------3-----2-----3----2-----3----2----0----0---------------------|
E|-------x-----3-----x----3-----x----3----x----x---------------------|



| /  slide up
| \  slide down
| h  hammer-on
| p  pull-off
| ~  vibrato
| +  harmonic
| x  Mute note

 


Differently the Same (2) Tabbed by angelina_106@hotmail.com This is all my own work, its easy to play I just wish I could sing along! Verse: G C D C D C G (chord changes are fast, only about two strums on each, listen to it and you'll get it) Chorus: C D Differently the same (repeat a few times, end with a Dmajor)