Autoscroll Speed
Start AutoscrollingStop Autoscrolling Decrease Autoscrolling speed1Increase Autoscrolling speed

Tabbed by Henning Koetter (henning.koetter@gmx.de)



Standard tuning

Chords:

E 	0-2-2-1-0-0
c#	x-4-6-4-5-4
A	5-7-7-6-5-5
g#	4-6-6-4-4-4
f#	2-4-4-2-2-2
B7	x-2-1-2-0-2

Listen to the song for timing and strumming


verse

E - c# - A - g# - c# - f# - B7

E - c# - A - g# - c# - f# - B7



chorus

A - g# - A - g# - A - g# - f#

A - g# - A - g# - A - g# - f# - B7



bridge

A - g# - f# - E - A - g# - B7


verse 
chorus
verse
chorus
bridge
chorus - end  on E



verse lick

e|------------------------|
B|------------------------|
G|------------------------|
D|------2-----2-----2-----|
A|--2h4---2h4---2h4-------|
E|------------------------|


bridge lick 

e|------------------------|
B|------------------5-----|
G|-------------4h6--------|
D|------2-4s6-------------|
A|--2s4-------------------|
E|------------------------|