Autoscroll Speed
Start AutoscrollingStop Autoscrolling Decrease Autoscrolling speed1Increase Autoscrolling speed

Tabbed by Micka Reinmuth

donavonfTab.com.au.tt


Verse and Chorus:

  x x x x  x  x x x x  x
--------------------------
----------------2-2-2--2--
----1-1-1--1----2-2-2--2--
----2-2-2--2----2-2-2--2--
----2-2-2--2--0-----------
--0-----------------------

   B     A
|--7--|--5--|
|--7--|--5--|
|--8--|--6--|
|--9--|--7--|
|--9--|--7--|
|--7--|--5--|

            B             A
oh no not me, oh no not me

© Copyright donavonfTab.com.au.tt