Autoscroll Speed
Start AutoscrollingStop Autoscrolling Decrease Autoscrolling speed1Increase Autoscrolling speed

Tabbed by Micka Reinmuth

donavonfTab.com.au.tt


Chords:
   C    Em     F     G
|-----|-----|--1--|--3--|
|--1--|-----|--1--|--3--|
|--0--|-----|--2--|--4--|
|--2--|--2--|--3--|--5--|
|--3--|--2--|--3--|--5--|
|-----|--0--|--1--|--3--|

C        Em          F         G 
everyday people like you and me

Break:
   F   G
---1---3---
---1---3---
---2---4---
---3---5---
---3---5---
---1---3---
Yesterday and what we could be...

Solo:
--0h3p0-----------------
--------5-3-1--3/5-3-1--
------------------------
------------------------
------------------------
------------------------

© Copyright donavonfTab.com.au.tt