Autoscroll Speed
Start AutoscrollingStop Autoscrolling Decrease Autoscrolling speed1Increase Autoscrolling speed

Tabbed by Micka Reinmuth



Chords:
  A7m    Bm   D7m    Dm    A     G 
|--0--|--2--|--5--|--5--|--5--|--3--|
|--2--|--3--|--7--|--6--|--5--|--3--|
|--1--|--4--|--6--|--7--|--6--|--4--|
|--2--|--4--|--7--|--7--|--7--|--5--|
|--0--|--2--|--5--|--5--|--7--|--5--|
|-----|-----|-----|-----|--5--|--3--|

Intro:

A7m, Bm, A7m, Bm


Verse:

A7m                  Bm
  Ah baby, let's get down tonight


Prechorus:

D7m           Dm              A
  Even though I can't see you all the time

Fill 1:
------------------------------------
--10h12-----------------------------
---------9h11-----------------------
---------------9h11------7----------
------------------------------------
------------------------------------

D7m           Dm                  A
  I've got to let you know you're on my mind

Fill 2:
-----------------------------------
------------------------10---------
------------------9h11-------------
----------7-9\11-------------------
---7-7\9---------------------------
-----------------------------------

D7m           Dm              A
  Even though I can't see you all the time

[Repeat fill 1]

D7m           Dm                  A
  I've got to let you know you're on my mind

Fill 3
--------------------------------
--------------------------------
--------------------------------
--------------7-9b10-9-9--------
---7-7\9------------------------
--------------------------------

Chorus:
A     G           Bm
On my mind, on my mind again
A     G           Bm
On my mind, on my mind again
A            G           Bm
you're On my mind, on my mind again
    D 
Well I've got to let you know
       D7m
That I'll never let you go

END on A7m 

© Copyright donavonfTab.com.au.tt