Autoscroll Speed
Start AutoscrollingStop Autoscrolling Decrease Autoscrolling speed1Increase Autoscrolling speed

Tabbed by Micka Reinmuth

donavonftab.com.au.tt


Chords:

 Cadd9   G    Em     F
|--3--|--3--|-----|--1--|
|--3--|--3--|-----|--1--|
|--0--|--4--|-----|--2--|
|--2--|--5--|--2--|--3--|
|--3--|--5--|--2--|--3--|
|-----|--3--|--0--|--1--|
 

Intro:
                                       Cadd9        G
-------------------3-----3--
--3\5/3------------3-----3--
---------4/2p0-----0-----4--
-------------------2-----5--
----------------3--3-----5--
----------------------3--3--
[repeat chords as required]


Verse:
                                            Cadd9                                                         G
---------------------3--|----------------------3--
--3\5/3--------------3--|--3\5/3---------------3--
---------4/2p0-------0--|---------4/2p0--------4--
---------------------2--|----------------------5--
------------------3--3--|----------------------5--
------------------------|-------------------3--3--
                                            [repeat chords as required]     

Chorus:
Em             F        G
sometimes your life can crumble
Em             F                   G
sometimes your life might make you stumble
Em           F             G
but you cant drown in your sorrow
Em                        F              G
cause you might be found, might be found tomorrow


© Copyright donavonfTab.com.au.tt