Autoscroll Speed
Start AutoscrollingStop Autoscrolling Decrease Autoscrolling speed1Increase Autoscrolling speed

Tabbed by Eg-g 

 

Verse - this just repeats about 57896859 times throughout the song.

G|-------------------------------|
D|-------------------------------|
A|--5-5-----3-3------------------|
E|------5-5-----3-3--------------|

Chorus - Each time it goes to the chorus, it plays this riff twice then
back to the verse part, but I think it's still the chorus. I'm not sure.
Just listen. If you can't figure it out, sell your bass 😛

G|---------------------------------------|
D|---------------------------------------|
A|----------5-5-5-5-3-3-3-3-3-3-3-3------|
E|--3-3-3-3------------------------------|