Autoscroll Speed
Start AutoscrollingStop Autoscrolling Decrease Autoscrolling speed1Increase Autoscrolling speed

Tabbed by Eg-g 

This is a pretty easy bass song with some funky yet simple tunes.

Verse

G|------------------------------------------|
D|------------------b6----------------------|
A|--6----4----------------6----4------------|
E|----------6----4----------------6----4----|

Chorus

G|-------------------------------|
D|-------------------------------|
A|--------5--8---------3--6------|
E|--6--6---------4--4------------|

(Let's hear the bass play one more time!) 😛
Play this as fast as you possibly can. It took a while to figure out. I don't know how Jimi manages it on a double

bass. I've played it one a couple of times. Whew!

G|-----------6--8---6------------6--------------
D|------6-8------------8--6--8------------6-8---------
A|-6-6---------------------------------6-6-------------
E|------------------------------------------------------|
G|-6-8-6------6-8--------------6-8-6------------------------|
D|-6-8--------------6-8---------6-8---5--6------------|
A|--------------6-6---------------------------6\0----|
E|-------------------------------------------------|