Autoscroll Speed
Start AutoscrollingStop Autoscrolling Decrease Autoscrolling speed1Increase Autoscrolling speed

Tabbed by Greg Croak 

Verse:
|---------------------------------------4--6--4-----------|
|--------------------5-------2--4--5-------------6--4-----|
|-----------------------5(b)---------4-----------------6--|
|--2--2--x--x--2--3---------------------------------------|

Break:

|-----------2/9-----2/9--|
|------------------------|
|------------------------|
|--0--0--0---------------|