Autoscroll Speed
Start AutoscrollingStop Autoscrolling Decrease Autoscrolling speed1Increase Autoscrolling speed

Tab submitted by Ross Mahaffey
 

I saw him play it this way, Verse F-C-G, Chorus, G-D-F-C. 

I do the harp parts as well and they match up perfectly. 

Walk up to F, Walk up to C, Walk up to G. 

e--------------------1----1-----1---------1-------1------1------------
b-------------------------------------------------------------------
g----------------1------1----1--------1-------1------1----------------
d------0-2-3--------------------------------------------------------
a--------------------------------0-2-3----------------------------------
e-------------------------------------------------------------------

e--------------3-----3-----3-------------
b---------------3-----3-----3------------
g----------------0-----0-----0-----------
d----------------------------------------
a----------------------------------------
e---0-2-3--------------------------------


 


Tabbed by deltariverblues from the philadelphonic.com forums My Spacing is really off but if u can listen and follow along it is easy to figure out. Just a little fingerpickin and its a pretty cool song Main Verse E---------------------1-----------1----------1-------------- -------------------------------------- B------1---1---1---------1------------1--------------------- -----------1-------------1----------- G------------------0-----------0----------0--------0------0- ----0------------0----------- D----0---2---3--------2------------0------------------------ --------0-----------0----------- A-------------------------------------------------0------2-- ---3------------2------------- E----------------------------------------------------------- ---------------------------- E-------------------------------------------------3--------- --------3----------------3--------------- B----------------1------------------------------------------ -------------------------------- G-------0------------------0-----0------0---------------0--- -------------0----------------------- D-----------0--------------------------------0-------------- ---0-----------------0-------------------- A---0------------------------------------------------------- -------------------------------- E-----------------------0-----2-----3-----------------3----- -----------3-------------------------- Then Changes up Em - D - F - C