Autoscroll Speed
Start AutoscrollingStop Autoscrolling Decrease Autoscrolling speed1Increase Autoscrolling speed

Tabbed by Ross Mahaffey

e----------------------------------------------
b----------8---6--8-------------------------------
g----9-----7---5--7-------9------8/11-----------------         Verse
d---8--------------------8-------------------
a--9--------------------9--------------------
e-------------------------------------

Chorus I like cold beverage....I like cold beverage....I like cold beverage
yeah uh-huh is....D#7#9 (The Jimi Chord) I am pretty sure but not positive

e---------------
b----7-----------
g----6----------
d----5-----------
a----6-----------
e---------------

Something that adds a little to this is (if playing acoustic) is banging out
the beat on the body of the guitar when it comes down to the
"Hey when I'm fishing, lets keep one thing clear, the baits over there, my
brews right here..." Keep a steady four to the song
(One-Two-Three-Four-One-Two-Three-Four)

 


Tabbed by David Piniella

   intro and verse     bridge   lick 1          lick 2
e|--------------------|-------|-----10-12-----|--10/--|
B|------6--6--5-6/11--|---6---|--12b------12--|--12/--|
G|----6----6--5-6/11--|---6---|--12b------12--|--12/--|
D|--7-----------------|---7---|---------------|-------|
A|--------------------|---0---|---------------|-------|
E|--------------------|-------|---------------|-------|

intro : play it fast and appregiate the chord,
and slide the 6th fret double stop to *approximately*

verses: the 11th fret.

bridge: strum this chord, adding the low A every once in a while
"stick it in the fridge/go girl/work the cold one..."

lick 1: you can hear him play this between some sections.

lick 2: "yo, when i'm fishin'..."