Autoscroll Speed
Start AutoscrollingStop Autoscrolling Decrease Autoscrolling speed1Increase Autoscrolling speed

Chords submitted by Ross Mahaffey 

Shooting Hoops is really easy (except for the intro which I am still working
on). Maybe someone can help. It is an old blues turnaround in the key of D

The verse however is a D7 on the fifth fret, like this
"Well when the school lets out" start playing this to the rhythm

e--x--------------------
b--3--------------------
g--5--------------------
d--4-------------------
a--5-------------------
e--x-------------------

 


Bass Tab Tabbed by Greg Croak
Verse:				Chorus:
|--------------------|		|------------|
|---------------3----|		|------------|
|--5---------3----5--|		|------------|
|----3--4--5---------|		|--5------3--|
		     "They shootin hoops"
Solo:
|-------------------------------------|
|-------------------------------------|
|----2--3--2--3--5-----2--3--2--3--4--|
|--3----------------3-----------------|
|--------------------|------------------|
|---------------3----|---------------3--|
|--5---------3-----5-|-------------3----|
|----3--4--5---------|---3---4--5-------|
|-----------------------------------------------|
|-3--2--1--5---3--2--2---------------------3----|
|----------------------2--3--5----------3-----3-|
|-------------------------------3--4--5---------|
|----------------------------------------------------------|
|--------------------------7--6--5--5--3--2--1-------------|
|----------3--------4---7-----------------------5--3--2--1-|
|-3--4--5-----3--5-----------------------------------------|
|--------------|
|--------------|
|--0-----------|
|-----3--4--5--|