Autoscroll Speed
Start AutoscrollingStop Autoscrolling Decrease Autoscrolling speed1Increase Autoscrolling speed

Tabbed by David Piniella 

 
 main intro and verse riff   variation (in pre-verse and a bit in the chorus)

|---------------------------|----------------------------------|
|---------------------------|----------------------------------|
|---------------------------|----------------------------------|
|-----8-----5-------6----3--|---------8--5-5--------6--3-------|
|-----7-----5-------5----3--|---5/(7)--------3/(5)-------------|
|--8-------------6----------|----------------------------------|
 ^slight palm mute========^

****************************************************************
Interlude Chords:
(these are probably wrong, but they're as close as I can get 'em, and they
sound okay when played along to the CD.)

Gaug(no 3rd)
x x 5 0 4 3

Gadd6
x x 5 4 5 3

Fadd6
x x 3 2 3 1

Ddim(no 3rd)
x x x 2 3 4

This Ain't Living (3)
Tabbed by Tim Stewart
this is my first tab .. just an alternate to the one above

main intro and verse riff

E|-----------------------------|
B|-----------------------------|
G|-----------------------------|
D|--10--9----5---5/8--7----3---|
A|---7--7----5---5/5--5----3---|
E|---8--8----3---3/6--6----1---|