Autoscroll Speed
Start AutoscrollingStop Autoscrolling Decrease Autoscrolling speed1Increase Autoscrolling speed

Gimme Some Lovin' by G. Love and the Special Sauce

 

From their album 'Philadelphonic'

Tabbed by: Shawn S 


This is an awesome song, and not really all that hard to play once you get the timing and all down.
Listen to the CD to help get rhythm and such. G plays it a little more complicated than this,
but this is pretty darn close.

Intro:

                          C      F                  
|--3---3-3p0-3p0---|3-3/5-----------|----3p1-3-1-----|
|------------------|------1---------|----------------|
|------------------|--------0---2---|2---------------|
|------------------|----------2---3-|--3-3---3-3-----|
|3---3-----------3-|------3-----0---|----------------|
|------------------|----------------|----------------|
C          G             C                         
|------------------|----------------|----------------|
|1--------1---3----|----3-1-----1---|--1-------------|
|---0---0-------0--|--0-----0-----0-|----0-----------|
|-----2------------|0---------2-----|2-----2---------|
|3-----------------|------3---------|----------------|
|-----------3------|----------------|----------------|

Chords:

C F C G C (Repeat over and over; finger-pick these chords...
adding a hammer on or pulloff here and there as needed.)

Here's part of the slide solo.
I say part, because there is some bass over the top of that to
embellish it, but I haven't sat down and figured it out yet.

|-----------------------------|
|-3/5-3-1-0-1-3-3/5-3-1-3-1---|
|-----------------------------|
|-----------------------------|
|-----------------------------|
|-----------------------------|

That's most of the song, hope that helps you out. Comments, suggestions,
and additions welcome.

 


Gimme Some Lovin' (2)

Tabbed by: Caleb Hayes

Main riff:

E---3---3---3p0---3-0-----3---3/5-------------|
b-----1---1-----1-----1-----1-----------1-----|
g-------------------------------------0-------|
d-----------------------------------2---------|
a-3-3---3---3-----3-3---3-3-------3-----------|
e---------------------------------------------|
E-1-------3p1---3-1-------0------------------------------------------------|
b-----1-------1-----1-------1---0-----3\1-----0---h1---1-----------1-------|
g---2---2---------------------0-----------0--------------0---0-------0---0-|
d-3-------3-----3-3-----2-----------0-------0--------2-----2-----2-----2---|
a---------------------3-------------------------3--------------3-----------|
e---------------------------------3----------------------------------------|

every-other time you play the main riff, (starting after the second time)
Start off with this.

E--------------|
b--1--3--1-----|
g--------------|
d--------------|
a--3--3--3-----|
e--------------|

Fill/(almost considered a solo)

        G       C
E-------3-------------------------------------------------|
b-------3-------1-------1---------1---1-------1-----------|
g-------0-------0---0-----0---0---0---0---0-----0---0-----|
d-------0-------2-----2-----2-----2---2-----2-----2-------|
a-------2---0-3-3-3-------------3-3-3-3-3-----------------|
e-0-1-3-3-3-----------------------------------------------|

I'm still working on the second fill but with a little
experimentation you can rock a Phat jam with just this
(I'm only missing about 6-8 seconds of the song)

If you don't have the CD to listen to, don't bother trying
to learn this. It's tough to get all the notes right.

Vocals:

Gimme some lovin' early in the mornin'
I just woke up with this appetite
Come on gimme love in the mornin' light (repeat)

Some people like it in the afternoon
I don't think that I can wait that soon
come on gimme love in the mornin' light

Some people's likin' it late at night
I can wait that long but I don't think I might
come on gimme love in the mornin' light

I wanna love you soft and love you sweet
I wanna feel your heart beat
I need your attention, to get me started right

I'm gonna wake you up wit a kiss on the cheek
come a little closer open up to me
Good mornin' babe good mornin' babe

Open your eyes just a little bit
good mornin' sunshine I can't resist
Dreamin' 'bout you babe all through the night