Autoscroll Speed
Start AutoscrollingStop Autoscrolling Decrease Autoscrolling speed1Increase Autoscrolling speed

Honor and Harmony  by G. Love and the Special Sauce

 

Tab submission by Corey Clowes

Verse

e-----1--1----3--3--3----1---1----3--3--3--------
B-----1--1----3--3--3----1---1----3--3--3--------
G-----2--2----3--3--3----2---2----3--3--3--------
D-----3--3----3--3--3----3---3----3--3--3--------
A-----3--3----1--1--1----3---3----1--1--1--------
E-----1--1---------------1---1-------------------

Bridge

e------------------------------------------------
B---------------------3--------------------------
G----0-0---2/3---2-2--3--------------------------
D----2-2---3/5---3-3--3--------------------------
A---------------------1--------------------------
E------------------------------------------------


The second guitar plays around this... once or twice here

e-----------------------------------------------------------------------
B-----------------------------------------------------------------------
G-----------------------------------------------3-1---------------------
D--3-1-------1-1-1-1-1-1-3-1------------------------3-1-3---------------
A------3-1-3-----------------3-1-3--------------------------------------
E-----------------------------------------------------------------------


The solo part (2:41)

e-----------------------------------------------------------------------------------------------------------------
B----------11-------------------------------------------------13-13-13-13----13-13/15-13--------------------------
G----12^14----12^14^12-10----10----10h12-10----10-12-10-12/14-------------14-------------14-12/10----10-12-10h12--
D-------------------------12----------------12----------------------------------------------------12--------------
A-----------------------------------------------------------------------------------------------------------------
E-----------------------------------------------------------------------------------------------------------------

e-----------------------------------------------------------------------------------------------------------------
B-----------------------------------------------------------------------------------------------------------------
G---10----10-10--------10h12p10----10h12p10----10h12p10----10h12p10----10h12p10-----10-12-10----------------------
D------12-----------12----------12----------12----------12----------12-----------12-------------------------------
A-----------------------------------------------------------------------------------------------------------------
E-----------------------------------------------------------------------------------------------------------------

e-----------------------------------------------------------------------------------------------------------------
B-----------------------------------------------------------------------------------------------------------------
G------10h12p10----10h12p10----10h12p10----10h12p10----10h12p10----10-10-10----12-10-12/14------------------------
D---12----------12----------12----------12----------12----------12------------------------------------------------
A-----------------------------------------------------------------------------------------------------------------
E-----------------------------------------------------------------------------------------------------------------


Outro

e-------------------------------------------------------------------------------------------------
B-------------------------------------------------------------------------------------------------
G-----------------------5-5-5--3-3-3--2---------------------5-5-5---3-3-3--2----------------------
D------6-8-8-8-6--------6-6-6--5-5-5--3--------6-8-8-8-6----6-6-6---5-5-5--3----------------------
A--6/8-----------8-------------------------6/8-----------8----------------------------------------
E-------------------------------------------------------------------------------------------------