Autoscroll Speed
Start AutoscrollingStop Autoscrolling Decrease Autoscrolling speed1Increase Autoscrolling speed

Don't Drop It by G. Love and the Special Sauce

Tabbed by Eg-g 


Intro

D|-----12--8--10---10-----10-----10-----10-----10---------10-8-------|
A|-10--10--6--8----8--10--8--10--8--10--8--10--8--10------8--6--10---|
E|-8------------------8------8------8------8------8-------------8----|

Chorus

D|---10-----10-----10-------10-8-------|
A|---8--10--8--10--8--10----8--6--10---|
E|------8------8------8-----------8----|

Verses

D|-----12--8--10-||--10-----10-----10-------||
A|-10--10--6--8--||--8--10--8--10--8--10----||
E|-8-------------||-----8------8------8-----||

This bit here varies
in length and can go from
playing 3 times to 7 even.
You just have to listen to
the song to see how many
times he plays it.

 


phillipshead:

Here are the chords I use when playing Don't Drop It. G adds a lot of
hammer on's and pull off's, especially around the F. Impossible for me
to tab something like that out. This is my first try at this so if anything
seems wrong or if you have anything to add please let me know.

E--X-----3-----X-------------------------------------------- ---
B--1-----3-----4------1------6-------6-------6---------6--4- ---
G--0-----3-----0------2------X---0---X---0---X---0----X--X-- 0--
D--2-----X-----5------3------7---X---7---X---7---X----7--5-- X--
A--3-----X-----6------X------8---7---8---7---8---7-----8--6- -7-
E--X-----X-----X-------------X---8-------8-------8---------- --8