Autoscroll Speed
Start AutoscrollingStop Autoscrolling Decrease Autoscrolling speed1Increase Autoscrolling speed

Submitted by Corey Clowes


The 577600 is an upstroke, listen to the tune to see what I mean.. I haven't seen him play this
but it sounds pretty accurate.

Intro and verse

e-------0--------------------------0------------------------------
B-------0--------------------------0------------------------------
G-------6------------7-------------6----------7-------------------
D-----7-7--------7---7h9p7-------7-7-------7--7-------------------
A-----7-7----7/9---9-------9-----7-7---7/9--9---------------------
E-----5-5------------------------5-5------------------------------

Breakdown

e-----8-----7------------
B-----8-----7------------
G-----9-----7------------
D-----10----9------------
A-----10----9------------
E-----8-----7------------

 


Tabbed by Mike Lovci X3
e-|---------------------------------------------------|
B-|----2-2-------------------------2-2----------------|
G-|o---2-2--------2---2h4p2--------2-2--------2---2--o|
D-|o---2-2--0h2/4---4-------4------2-2--0h2/4---4----o|
A-|--0---------------------------0--------------------|
E-|---------------------------------------------------|
e-|------------3---3-3-3-3-3-----
B-|---5--5-5---3---3-3-3-3-3-----
G-|---5--5-5---2---2-2-2-2-2-----
D-|---5--5-5---4---4-4-4-4-4-----
A-|---3--3-3---2---2-2-2-2-2-----
E-|------------------------------

Same pattern in sung portion and harmonica/instrumental portion.

 


Tabs obtained from the philadelphonic forums

BradC:

A riff (repeat as many times as is) c then bminor ( I would do the c on 8th fret n bminor 7th)

RIFF
------------------
------------------
------------------
-----7-7-7h9p7----
-3/9----------9p7-
------------------ that's how I do it sounds right

IonicBondsMusic:

Front Porch Loungin' is like this:

e----------------------
B--2-------------------
G--2------2---2h4- 2---
D--2--2/4---4----------
A--0-------------------
E----------------------

and then the chorus/changeup is C, Bm, back into the A figure

tdubbs26:

the tab above is correct, but is easier to play the riff this way:

play A then the riff

e-------------------------------
B-------------------------------
G----------2------2\4/2------2--
D--2/4-------4-----------4------

the verses are A D/A and chorus C Bm