Autoscroll Speed
Start AutoscrollingStop Autoscrolling Decrease Autoscrolling speed1Increase Autoscrolling speed

Tabbed by deltariverblues (philadelphonic.com forums)

 

(On the album, the guitar is down tuned two half steps
but otherwise play it like this, G. plays it live like this)

G- 320003
C- x32013
F- xx3213
Am-x02210

It just goes G -> C back and forth for the beginning
Then it changes goes a part G->C->F->C
Then the "Waiting...for you to come around" is played
G->F->Am then this roll
e---------------------------------------
B--3--1p0-----------------------------
G------------2p0-------2p0--------0---
D-----------------2p0-------2p0------
A---------------------------------------
E---------------------------------------
Then G->F->C again to this roll
e---------------------------------------
B----------------------------------------
G--2p0------0------0---0h2p0---------
D---------2-----2---------------2-------
A---------------------------------------
E----------------------------------------

If you are feeling ambitious bust out your C harmonica