Autoscroll Speed
Start AutoscrollingStop Autoscrolling Decrease Autoscrolling speed1Increase Autoscrolling speed

Tabbed by Tyler Frost 

 

Capo 1st fret
 
e---------------------
B----2--2----2-----------
G---2----2--2------------
D---------------------
A--0--------------------
E------2---0---3b-0-3b--------

"...the whole lies in the nest" part goes like this:

e---------------------
B------2---------------
G--2--2---1---2---------
D--2-------2---2---------
A--0-------2---0----------
E------2---0-----------

and that's it