Autoscroll Speed
Start AutoscrollingStop Autoscrolling Decrease Autoscrolling speed1Increase Autoscrolling speed

Banana Pancakes Bass Tab by Jack Johnson

Tabbed by: Luke Boxall

(0:20)

G----------------------------------------|
D----------------------------------------|
A--------5---5-------3---3p1-------------|
E--3---3-------5---5---------3-----------|

(0:36)

G-----------------------------------------------------|
D-----------------------------------------------------|
A----------5-------------------------5----------------|
E---5---7-----7---5/3--0--3---5---7-----7--5/3--0--5--|...

G-----------------------------------------------------|
D-----------------------------------------------------|
A-------5---------------------------------------------|
E-5--7-----7--5/3--0--3----3-3-3...-------------------|

Bridge (0:42)

G---------------------------------------------------------|
D---------------------------------------------------------|
A--------------------7--5--55--55--55---------------------|
E--5---55--55--55-5--------------------7-5--5--55--55--55-|

'The telephone...'

G-------------------------------------------------------|
D---------------------------------------2--2-1-1--------|
A--7--5--55--55--55---1---2--22--22--2------------3-----|
E-------------------------------------------------------|

G-------------------------------------------------------|
D-------------------------------------------------------|
A--3--33--33--3----------------5--55--55--5-------------|
E----------------5--33--33--3----------------3----------|