Autoscroll Speed
Start AutoscrollingStop Autoscrolling Decrease Autoscrolling speed1Increase Autoscrolling speed

Breakdown Bass Tab by Jack Johnson

Tabbed by: Luke Boxall

G--------------------------------|
D--5------5-------2---------5-5--|
A----3-3-----2-2-----------------|
E-------------------5-5--5-------|

Chorus

G----------------------------|
D----------------------5-5---|
A--3-3--3-22--2--------------|
E---------------5-5--5-------|...

G----------------------------|
D-------5-5--3-3-------------|
A-33--3----------3-3---------|
E----------------------------|

'I wanna break on down...'