Autoscroll Speed
Start AutoscrollingStop Autoscrolling Decrease Autoscrolling speed1Increase Autoscrolling speed

Bubble Toes Bass Tab by Jack Johnson

Tabber:T4-TURBO

Riff 1:

g:-------7--5--5-5h7--7--------7--5--5-5h7--7|
d:5--5-5----------------5--5-5---------------|
a:-------------------------------------------|
e:-------------------------------------------|

Riff 2:

g:-------------------------------------------|
d:-------------------------------------------|
a:-------5--3--3-3h5--5--------5--3--3-3h5--5|
e:3--3-3----------------3--3-3---------------|

Riff 3:

g:-------------------------------|
d:-------------------------------|
a:----5-5-----5-5-----5-5-----5-5|
e:3-3-----3-3-----3-3-----3-3----|

Riff 4:

g:--------------------------------|
d:--------------------------------|
a:----5-5-----5-5-3-3--3-3-5-5-5-5|
e:3-3-----3-3---------------------|