Autoscroll Speed
Start AutoscrollingStop Autoscrolling Decrease Autoscrolling speed1Increase Autoscrolling speed

Crying Shame Bass Tab by Jack Johnson

Tabbed by: Luke Boxall

Verse

G--------------|-----------------|
D--------------|-----------------|Play 2nd part
A--------------|-44-22-22-22-----|4 times.
E--44-44-44-44-|-----------------|

(0:50)

G---------6-6----------88-----|
D--4-4--4-----4---66-6----6---|
A-----------------------------|
E-----------------------------|

Chorus

G-------------------|
D-------------------|
A--4--42--2---------|
E------------5--54--|

End chorus on F# on 4th fret, D string.

Over little solo play 2nd part of verse riff
a few times.