Autoscroll Speed
Start AutoscrollingStop Autoscrolling Decrease Autoscrolling speed1Increase Autoscrolling speed

Dreams Be Dreams Bass Tab by Jack Johnson

Intro

G|-------------------------|
D|-------------------------|
A|--5--5-5--5-5--5-5--5-5--|
E|-------------------------|

Verse

G|----------------------|
D|----------------------|
A|--5--5-2--2-----------|
E|------------3--3-5--5-|

Chorus

G|-------------------------------------|
D|-------------------------------------|
A|--5--5-5---2--2-2--------------------|
E|--------------------3--3-3---5--5-5--|