Autoscroll Speed
Start AutoscrollingStop Autoscrolling Decrease Autoscrolling speed1Increase Autoscrolling speed

F-Stop Blues Bass Tab by Jack Johnson

*= let ring

Intro
G|-------------|
D|-------------|
A|-------0*-2*-| x2
E|-0*-4*-------|

Verse
G|-------------|
D|-------------|
A|----2*-0*-0*-| x7
E|-0*----------|

Verse End
G|----------|
D|----------|
A|----2*-0*-| x1
E|-0*-------|

Chorus
G|---------------------|
D|---------------------|
A|-----------0*-0-2*-2-| x4
E|-0*-0-4*-4-----------|

Guitar Solo
G|---------------------|
D|---------------------|
A|-----------0*-0-2*-2-| x2
E|-0*-0-4*-4-----------|

Verse
G|----------------|
D|----------------|
A|----2*-0*--0-0*-| x2
E|-0*-------------|

Fill
G|---------------|
D|---------------|
A|------------0*-| x1
E|-2*--2-2*-2----|

Chorus
G|---------------------|
D|---------------------|
A|-----------0*-0-2*-2-| x4
E|-0*-0-4*-4-----------|

Outro
G|---------------------|
D|---------------------|
A|-----------0*-0-2*-2-|
E|-0*-0-4*-4-----------|