Autoscroll Speed
Start AutoscrollingStop Autoscrolling Decrease Autoscrolling speed1Increase Autoscrolling speed

Flake Bass Tab by Jack Johnson

Tabbed by PunkBoy13

Notes: pretty self explanatory, there are no 11’s, they are just two 1’s

Verse 1
G---------------------------------------
D-----------3/-------------------------- 3x
A--345-55-----------3/1-1,1--3/---------
E-------------1-1,1-------------1-1,1---

G-----------------------------------------
D-----------3/----------------------------
A--345-55-----------3/1-1,1--1\\3-33--0-3-
E-------------1-1,1-----------------------

Chorus
G---------------------------------------------------------------------
D---------------------------------------------------------------------
A----------03-33--345-55--050-00---01-1,1--03-33--03--------03-33--03-
E--1-1,1--1-----------------------1-------1----------1-1,1-1----------

G---------------------------------------------------------------------
D---------------------------------------------------------------------
A---------03-33--345-55--050-00---01-1,1--03-33--03-------03-33--34---
E--1-1,1--1-----------------------1------1----------1-1,1-1-----------

Verse 2
G----------------------------------------
D----3/-------------------3/-------------
A--5------3/1--3/--345--5------3/1--3/---
E------1---------1----------1---------1--

Verse 1(both lines, no repeats)
Chorus (first line 2x, no second line)

and that’s it, bass doesn't play the rest