Autoscroll Speed
Start AutoscrollingStop Autoscrolling Decrease Autoscrolling speed1Increase Autoscrolling speed

Good People Bass Tab by Jack Johnson

Tabbed by: Luke Boxall

Verse

G---------------------------------------------|
D-----------------6---------------------------|
A----------6-7-7----------11--9-9---6---------|
E---7-7--------------9-9---------------7--7---|

Or... (whichever floats your boat)

G----------------------------------------------|
D-----------------6-------6--4-4---------------|
A----------6-7-7-----4-4------------6----------|
E---7-7---------------------------------7--7---|

...from verse (1:52)

G---------------------------------------------------|
D--4-4--3--2-2--2-----------------4-4-----2-2-3-4---|
A-----------------2-2--3--4-4--4-------4------------|
E---------------------------------------------------|

N.B. the above is not the correct number of notes.