Autoscroll Speed
Start AutoscrollingStop Autoscrolling Decrease Autoscrolling speed1Increase Autoscrolling speed

If I Could Bass Tab by Jack Johnson

Tabbed by: Luke Boxall

G----------------------|
D----------------------|
A------7---9-----------|
E--5-----------7---5---|

G----------------------|
D----------------------|
A--7--7-----5-----7----|
E--------5-----7-------|

'Id give him more...'