Autoscroll Speed
Start AutoscrollingStop Autoscrolling Decrease Autoscrolling speed1Increase Autoscrolling speed

Losing Hope Bass Tab by Jack Johnson

Verse (Starts after Double Bass)

E -----5-----------3-----------------
A----------------3-------------------
D------------------------------------ Repeat As Needed
G------------------------------------

Pre-Chorus

E-----1-1--------------1-1-------------1-1-----
A------------------------------------------------
D------------------------------------------------
G------------------------------------------------

Chorus

E------------------------------5--------
A-------3-------2----------------------
D---------------------------------------
G---------------------------------------

E-------3------------------------------
A-------------------------2------------ Repeat As Needed
D---------------------------------------
G---------------------------------------

Post-Chorus

E----------------------------------
A--------3-----------------2-----
D----------------------------------
G----------------------------------

Then Back Into Verse again with

E---5---------------------------------

Verse (intro)
Pre-Chorus
Verse
Pre-Chorus
Chorus
Post-Chorus
Verse
Pre-Chorus
Chorus
Post-Chorus
Verse
Pre-Chorus
Chorus
Post-Chorus
Pre-Chorus
Chorus
Post-Chorus
Verse (outro)