Autoscroll Speed
Start AutoscrollingStop Autoscrolling Decrease Autoscrolling speed1Increase Autoscrolling speed

Never Know Bass Tab by Jack Johnson

Tabbed by: Luke Boxall

Verse

G------------------------------------------|
D--------6-4----4---6--------4-2----2-1----|
A--4---4--------------2---2----------------|
E------------------------------------------|

Bit into chorus (0:46)

G------------------------------------------|
D-----------4---4-6------------------------|
A--0---0-0-----------2---2-2-2...----------|
E------------------------------------------|

Chorus

G------------------------------------------|
D--------4----4-------2----2---------------|
A--4---4--------2---2--------4~------------|
E------------------------------------------|