Autoscroll Speed
Start AutoscrollingStop Autoscrolling Decrease Autoscrolling speed1Increase Autoscrolling speed

No Other Way Bass Tab by Jack Johnson

Tabbed by: Luke Boxall

G----------------------------------------------------------|
D--3--33-33-33-3--55---------------------------------------|
A--------------------1--1-1--1-1--1-1--33------------------|
E------------------------------------------33-33-33-33-3---|...

G----------------------------------------|
D------------------------5-5---3...------|
A--33--1--1-1--1-1--1-1------------------|
E----------------------------------------|

Chorus

G----------------|-----------------|
D--3--3----------|--3--5~----------|
A-------3--3--1--|----------3--1---|
E----------------|-----------------|

Over the little solo jib play F on 3rd fret, D string and
let ring.