Autoscroll Speed
Start AutoscrollingStop Autoscrolling Decrease Autoscrolling speed1Increase Autoscrolling speed

Rodeo Clowns Bass Tab by Jack Johnson

After the sweet guitar intro

Verse *2

G|------------------------------------
D|------------------7-----7-----------
A|--------11-9-----9---7-7-11--7-7-11-
E|--9--9-9------9-9-------------------

Chorus *2

G|------------------------------
D|-------------------7-9-9-9-9-9
A|--9-11-11-11-11-11------------
E|------------------------------

Verse *2

Chorus *2

\"lights out, shut down, late night, wet ground\"
Then play :

G|---------------------------
D|---------7-----7-----------
A|--------9---7-7-11--7-7-11-
E|--9--9-9-------------------
And play Verse *1

Chorus *4

End

G|----------------------------
D|------------------7-----7---
A|--------11-9-----9---7-7-11-
E|--9--9-9------9-9-----------