Autoscroll Speed
Start AutoscrollingStop Autoscrolling Decrease Autoscrolling speed1Increase Autoscrolling speed

Situations Bass Tab by Jack Johnson

Tabbed by: Luke Boxall

G------------------------------------------|
D-------9-9-9-9-6--6-6-6-------------------|
A--9--7------------------7-7-7-7--9-9-9-7--|
E------------------------------------------|

(0:50) Outro

G------------9-8-88-6----------------------|
D--9--9-9-9-----------7-77-6------9--------|
A----------------------------9--7----------|
E------------------------------------------|