Autoscroll Speed
Start AutoscrollingStop Autoscrolling Decrease Autoscrolling speed1Increase Autoscrolling speed

Taylor Bass Tab by Jack Johnson

After the sweet guitar intro

Verse
G|---------------------------|
D|------------------3-3--55--|
A|--3--2-2-2--22-------------|
E|---------------5-----------|

Chorus
G|--------------------|
D|------7-5-----------|
A|--3-----------------|
E|------------5--3-1--|

End
G|--5--5--5/7--7------------------|
D|--------------------------------|
A|----------------8--8--8/10--10--|
E|--------------------------------|

G|------------------------|
D|----------5----------5--|
A|--3--3-3----------3-----|
E|-------------1--1-------|