Autoscroll Speed
Start AutoscrollingStop Autoscrolling Decrease Autoscrolling speed1Increase Autoscrolling speed

The Horizon Has Been Defeated Bass Tab by Jack Johnson

Tabbed By: ADRA (d_abernathy20@hotmail.com)

h= hammer
*= let ring

Into/Chorus:
G|---------------------------------|
D|------11-------------------------| x2
A|-9h11-----------7-7-9-9-9------9-|
E|---------11-9-7-----------9h11---|

Verse:
G|--------------------------|
D|--------------------------| x3
A|-9-9-----7-7-9-9-9------9-|
E|-----7-7-----------9h11---|

Alternate Verse:
G|-----------------------|
D|------11---------------| x1
A|-9h11-----------7-7----|
E|---------11-9-7-----9*-|

Verse: x4

On the 4th time doing the verse here, you hold down
9th fret on the E string like in the alternate verse.

Chorus: x1

Alternate Chorus:
G|--------------------------------------------------------------------------|
D|------11------------------------------------------------------------------|
A|-9h11-----------7-7---------12-11-9-9------9-9---------12-11-9-9------9-9-|
E|---------11-9-7-----9 9-7-7-----------9h11-----9 9-7-7-----------9h11-----|

Verse: x4 (Same situation with the 4th time doing the Verse as last time)

Chorus: x1

Alternate Chorus: x1

Outro:
G|----------------------------------------------|
D|----------------------------------------------|
A|---------12-11-9-9------9-9----------12-11-9*-|
E|-9 9-7-7-----------9h11-----9 9-7-7-----------|