Autoscroll Speed
Start AutoscrollingStop Autoscrolling Decrease Autoscrolling speed1Increase Autoscrolling speed

Wasting Time Bass Tab by Jack Johnson

Bass Tab by Tom Cocca

Main Riff

G|---------------------------------------|
D|---------7-7-4-7--4--------7-7-4-7--4--|
A|--5--5--------------7--7---------------|
E|---------------------------------------|

Variation 1

G|-------------------------------------|
D|-------------------------------------|
A|--5--5-------4--7---7--7-------4--7--|
E|--------5--5-------------5--5--------|

Variation 2

G|---------------------------------------|
D|--5--5----4-5-5---5-7--7----4-7-7---7--|
A|--------7-----------------7------------|
E|---------------------------------------|