Autoscroll Speed
Start AutoscrollingStop Autoscrolling Decrease Autoscrolling speed1Increase Autoscrolling speed

Banana Pancakes by Jack Johnson

Tabbed by Wes Cooke (taken from the jackjohnsonmusic.com/forums)

e--------------------5---------------------3--|
b--------------------5---------------------3--|
g--------------------5---------------------4--| ONLY 1st TIME
d--------------------7---------------------5--|
a------5-------------7-------5-------------5--|
E---/7---7-5-3-0--5--5--0-/7---7-5-3-0--3--3--|

Second Time Goes:

e------------------5-------------------3--|
b------------------5-------------------3--|
g------------------5-------------------4--|
d------------------7-------------------5--|
a-----5-7-5--------7-------5-----------5--|
E--/7-------7--3/5-5--0-/7---7-5-3-0-3-3--|

VERSE:

e---3---x---5---3----|
b---3---5---5---5----|
g---4---5---5---3----|
d---4---4---7---5----|
a---5---5---7---3----|
E---3---x---5---3----|

BRIDGE:
e--5--5-------------2--7---3--3--5--3--|
b--5--7-------------3--8---5--3--7--3--|
g--5--7-------------4--9---5--4--7--4--|
d--7--7-------------4--9---5--5--7--5--|
a--7--5-------------2--7---3--5--5--5--|
E--5--------------------------3-----3--|

Banana Pancakes by Jack Johnson

Tabbed by Jutuerna (taken from the jackjohnsonmusic.com/forums)

Banana Pancakes.
T = Thumb tap/smack whatever!
Intro/Chorus is similar, strum varies just listen you'll pick it up its 3 strokes each chord.
Focus more on the chords.

E--------------------5---5--------------------3---3-|
B--------------------5---5--------------------3---3-|
G--------------------6---6--------------------4---4-|
D--------------------7---7--------------------5---5-|
A-------5------------7---x-------5------------5---x-|
E---5/7---7-5-3-0----5-T-x---3/7---7-5-3-0----3-T-x-|

E-----------------5---5------------------3---3--|--3-3-|
B-----------------5---5------------------3---3--|--3-3-|
G-----------------6---6------------------4---4--|--5-5-|
D-----------------7---7------------------5---5--|--5-5-|
A------5/75-------7---x------5-----------5---x--|--3-3-|
E--5/7-------7--3/5-T-x--3/7---7-5-3-0---3-T-x--|------|

VERSE:

E----3----3----5---3-3---|
B----3----3----5---4-4---|
G----4----4----5---5-5---|
D----5----5----7---5-5---|
A----5--5-5----7---3-3---|
E--3-3-------5-5---------|
      T    T    T     T

BRIDGE:
E--5-7-----5-5------2-2-7-7--3-3-3-3-5-5-3-3----|
B--6-6-----6-6------3-3-8-8--4-4-3-3-6-6-3-3----|
G--5-7-----7-7------4-4-9-9--5-5-4-4-7-7-4-4----|<~strums not shows just listen
D--7-7--4x-7-7--4x--4-4-9-9--5-5-5-5-7-7-5-5----|
A--7-7-----5-5------2-2-7-7--3-3-5-5-5-5-5-5----|
E--5-5-T------T------------------3-3-----3-3----|