Autoscroll Speed
Start AutoscrollingStop Autoscrolling Decrease Autoscrolling speed1Increase Autoscrolling speed

Banana Pancakes by Jack Johnson

Tabbed by Kevin Uland

Intro…
                      G Am
e-----------------------x-3----------------------x-5
b-----------------------x-3----------------------x-5
g-----------------------x-4----------------------x-5
d-----------------------x-5----------------------x-7
a--------5--------------x-5-------5--------------x-7
E---5/7-----7—5\3-3-0-3-x-3--5/7-----7-5\3-3-0-5-x-5

                    G Am
e---------------------x-3----------------------x-5
b---------------------x-3----------------------x-5
g---------------------x-4----------------------x-5
d---------------------x-5----------------------x-7
a-----5-7-------------x-5-------5--------------x-7
E-5/7-----7—5\3-3-0-3-x-3--5/7-----7-5\3-3-0-5-x-5
 Well can’t ya see that… There ain’t no need to…

Well Ba---by--
e----5----5---
b----7----7---
g----7----7---
d----7----7---
a----5----5---
E-------------

Verse x4

G G Am        C
e----3----------3----------5---------3---3-----
b----3----------3----------5---------5---3-----
g----4----------4----------5---------5---3h4---
d----5----------5----------7---------5---3-----
a----5-------5-------------7---------3---x-----
E-3---------------------5------------3---x-----

Ya hardly even notice when I try to show ya this…
Or can be played like this with a little jazzy chord…

G D Am C
e----3----------5----------x---------3---3-----
b----3----------7----------5---------5---3-----
g----4----------7----------5---------5---3h4---
d----5----------7----------4---------5---3-----
a----5-------5-------------x---------3---x-----
E-3---------------------5------------3---x-----

Then the last in the verse time play it without the little hammer on thing on the C chord
G G Am C
e----3----------3----------5---------3--3-----
b----3----------3----------5---------5--5-----
g----4----------4----------5---------5--5-----
d----5----------5----------7---------5--5-----
a----5-------5-------------7---------3--3-----
E-3---------------------5------------3--3-----
Pretend like it’s the week end now

Play three measures of Am (x3) then do the slide
Am G
e-5---------------------------3-----------------------5
b-5---------------------------3-----------------------5
g-5---------------------------4-----------------------5
d-7---------------------------5-----------------------7
a-7------------5--------------5--------5--------------7
E-5-------5/7-----7—5\3-3-0-3-3---5/7-----7-5\3-3-0-5-5
Yeah… and we could pretend… And can’t ya see that…

Am G
e-5---------------------------3--------------5
b-5---------------------------3--------------5
g-5---------------------------4--------------5
d-7---------------------------5--------------7
a-7------------5--------------5--------------7
E-5-------5/7-----7—5\3-3-0-3-3------------5-5
 There ain’t no need to go… Ain’t no need aint no… mmm

  G Am G
e-3----------------------5-------------------3
b-3----------------------5-------------------3
g-4----------------------5-------------------4
d-5----------------------7-------------------5
a-5----------------------7-------------------5
E-3----------------------5-------------------3
mmmm… can’t yo see… rain all day…

Bridge

Am (x4)
And the telephone singing ringing it’s to early don’t

D (x4) Am (x4)
pick it up We don’t need to… we got everything we need

D (x4)
right here and everything is enough Just so easy when

Bm 7th fret (x4) E 7th fret (x1)
the whole world fits inside of your arms don’t really need

D (x1) C (x2) G (x4)
to pay attention to the alrarm Wake up slow mmm… mmm… wake up slow D D
Well Baby