Autoscroll Speed
Start AutoscrollingStop Autoscrolling Decrease Autoscrolling speed1Increase Autoscrolling speed

Banana Pancakes by Jack Johnson

Update from Joe: I think banana pancakes sounds better when this chord (x54533)

is played as the 2nd chord for the intro and verse instead of the G.

Tabbed by Khoi Trinh (DineristiC@hotmail.com)

Intro x4

    G          G         Am          C

e----3----------3----------5---------3---3-----
b----3----------3----------5---------5---3-----
g----4----------4----------5---------5---3h4---
d----5----------5----------7---------5---3-----
a----5-------5-------------7---------3---x-----
E-3---------------------5------------3---x-----

Verse x4

You hardly even...

    G          G         Am          C

e----3----------3----------5---------3--3-----
b----3----------3----------5---------5--5-----
g----4----------4----------5---------5--5-----
d----5----------5----------7---------5--5-----
a----5-------5-------------7---------3--3-----
E-3---------------------5------------3--3-----

Chorus (here’s the fun part!!)

We could pretend...

  Am                         G

e-5--------------------------3--------------------------
b-5--------------------------3--------------------------
g-5--------------------------4--------------------------
d-7--------------------------5--------------------------
a-7-------------5------------5------------5-------------
E-5--------5s7-----7—5s3--0--3-------5s7-----7-5s3--0---

Just maybe...

  Am                         G       D

e-5--------------------------3-------5—5----
b-5--------------------------3-------7—7----
g-5--------------------------4-------7—7----
d-7--------------------------5-------7—7----
a-7-------------5------------5-------5—5----
E-5--------5s7-----7—5s3--0--3-------5—5----

Bridge

The telephone rings...

  Am         D           Am        D

e-5----------5-----------5---------5-----
b-5----------7-----------5---------7-----
g-5----------7-----------5---------7-----
d-7----------7-----------7---------7-----
a-7----------5-----------7---------5-----
E-5----------5---—-------5---------5-----

When the moona dadada dadadda...

  B#m                    Em          C

e-7----------------------7-----------8------
b-7----------------------8-----------8------
g-7----------------------9-----------9------
d-9----------------------9-----------10-----
a-9----------------------7-----------10-----
E-7-------------—--------7-----------8------

Well baby...

  G         D         G                D
e-3---------5---------3----------------5-5----
b-3---------7---------3----------------7-7----
g-4---------7---------4----------------7-7----
d-5---------7---------5----------------7-7----
a-5---------5---------5----------------5-5----
E-3---------5----—----3----------------5-5----

Banana Pancakes (2) by Jack Johnson

Tabbed by: Teddy Wardak (used with permission, added 2/27/05)

RIFF:
e|-------------------------------|
B|-------------------------------|
G|-------------------------------|
D|-------------------------------|
A|------------5------------------|
E|---3--5/7-------7--5--3--0--3--|  when going into the Amin chord,
				    the last note will be a 5 on the low E

G		  D7
You hardly even notice
Amin		  C7
when i try to show you this
G		  D7
song is meant to keep you
Amin		  C7
from doin what your supposed to
G		  D7
wakin up too early
Amin 		  C7
maybe we could sleep in
G		  D7
I'll make you banana pancakes
Amin		  C7          Amin
pretend like it's the weekend now. 

RIFF			    G
We could pretend it all the time
RIFF			    Amin
can't you see that it's just raining
RIFF			    G
there aint no need to go outside 

C7
Just maybe
G	  D7	Amin	    C7
Laka uku lady momma made a baby
G			    D7
I really don't mind the practice
Amin		      C7
cause your my little lady
G	    D7 	    Amin	       C7
lady lady love me cause i love to lay here lazy
G		  D7
we could close the curtain
Amin	   	     C7		Amin
pretend like there's no world outside 

RIFF			   G
We could pretend it all the time
RIFF			   Amin
Well can't you see that it's just rain
RIFF			   G
there aint no need to go outside

Amin
The telephone ringin
					D7
singin it's too early dont pick it up 

We don't need to
Amin
we got everything we need right here
					D7
And everything we need is enough
Bmin
Just so easy when everything you need has got his mommas eyes
Emin	       D7       	 C7
and the whole world fits in her arms
G	         D7	          G
and you know and i know that you know 

C7
Baby

etc...
You hardly even notice
when i try to show you this
song is meant to keep you
from doin what your supposed to
wakin up too early
maybe we could sleep in
I'll make you banana pancakes
pretend like it's the weekend now. 

RIFF			    G
We could pretend it all the time
RIFF			    Amin
Well can't you see that it's just raining
RIFF			     G
there aint no need to go outside
				Amin
yeah no need yeah no need
			G
rain all day no i really really dont mind
		Amin
cant you see cant you see..
	G
mmm hmm..