Autoscroll Speed
Start AutoscrollingStop Autoscrolling Decrease Autoscrolling speed1Increase Autoscrolling speed

Belle by Jack Johnson

Tabbed by Gary Ralph

Standard tuning

INTRO:
Em7
E-0
B-3   6 Down strokes
G-0
D-2
A-2
E-0

Repeat this 3 three times

]--------------------------------------------------------------------]
]-----3--------3-----------3--------3-----------3------3--3-3----3---]
]-----4--------4-----------4------4---4---------3------3--3-3---3-3--]
]-----4--------4-----------2----2---------------3------3--2-2--2-----]
]--------------------------------------------------------------------]
]-3------3-3---------3--------3-------------3------3-3----3---3------]

]----------------------------------------------2------2--3-3-3-3-3---]
]-----3--------3-----------3--------3----------3------3--4-4-4-4-4---]
]-----4--------4-----------4------4---4--------2------2--2-2-2-2-2---]
]-----4--------4-----------2----2------------------------------------]
]-------------------------------------------2-----2-2----3-----------]
]-3------3-3---------3--------3--------------------------------------]

]--------------------------------------------------------------------]
]---5------5----5----5------5------5--4-4-----4------3-----3---------]
]---5------5----5---5-5-----5------5--4-4----4-4-----4-----4---------]
]---5------5----4--4--------5------5--3-3---3--------4-----4---------]
]--------------------------------------------------------------------]
]-5----5-5----5---5-------5----5-5----4---4--------3----3-3----------]

]--------------------------------------------]
]---8-----8-------5------5----4--4------4----]
]---8----8-8------5------5----4--4-----4-4---]
]---7---7---------5------5----3--3----3------]
]--------------------------------------------]
]-8----8--------5----5-5------4-----4--------]

Ending
]----------------]
]---3-----3--3---]
]---4-----4--4---]
]---4-----4--4---]
]----------------]
]-3---3-3----3---]