Autoscroll Speed
Start AutoscrollingStop Autoscrolling Decrease Autoscrolling speed1Increase Autoscrolling speed

 Better Together by Jack Johnson 

Tabbed by Fabio F.

I've just figured out the INTRO and the OUTRO,the rest sounds good!

Intro:

e-------------------------------------------------------------|
b-------------------------------------------------------------|
g--------12------10-----7----5----7-----10------12------10----|
d--10/12---12\10---10\7--7\5--5/7--7/10---10/12---12\10---10--|
a-------------------------------------------------------------|
E-------------------------------------------------------------|

Verse

(repeats)

E---8----8----5---3---6---6---3---8---
B---10---10---6---5---6---6---3---8---
G---10---10---7---5---7---7---3---9---
D---10---10---7---5---8---8---5---10--
A-8-8--7-7--5-5-3-3---8---8---5---10--
E-------------------6-6-5-6-3-3-8-8---

Chorus

(from C chord from verse - 8-10-10-9-8-8)
(repeats)

E-7-6-----------8---------------------
B-7-6-----------8---------------------
G-8-7-----------9---------------------
D-9-8-----------10--------------------
A-9-8-----------10--------------------
E-7-6-----------8---------------------
(the B chord (7-9-9-8-7-7) is just a quick transition walk up/down chord)

Bridge

(from C chord from verse - 8-10-10-9-8-8)
(repeats and goes into chorus)

E-3-------------8---------------------
B-3-------------8---------------------
G-3-------------9---------------------
D-5-------------10--------------------
A-5-------------10--------------------
E-3-------------8---------------------

Outro:

e-------------------------------------------------------------|
b-------------------------------------------------------------|
g--------12------10-----7----5----7-----10------12------10----|
d--10/12---12\10---10\7--7\5--5/7--7/10---10/12---12\10---10--|
a-------------------------------------------------------------|
E-------------------------------------------------------------|

e--------13------10-----8-----10------13------15------13------10--(8)-(10)~-|
b--10/13---13\10---10\8--8/10---10/13---13/15---15\13---13\10---10\8-/-10~--|
g---------------------------------------------------------------------------|
d---------------------------------------------------------------------------|
a---------------------------------------------------------------------------|
E---------------------------------------------------------------------------|