Autoscroll Speed
Start AutoscrollingStop Autoscrolling Decrease Autoscrolling speed1Increase Autoscrolling speed

Better Together by Jack Johnson

Tabbed by TheBigKevDogg (jackjohnsonmusic.com/forums)

Verse
(repeats)
E---8----8----5---3---6---6---3---8---
B---10---10---6---5---6---6---3---8---
G---10---10---7---5---7---7---3---9---
D---10---10---7---5---8---8---5---10--
A-8-8--7-7--5-5-3-3---8---8---5---10--
E-------------------6-6-5-6-3-3-8-8---

Chorus
(from C chord from verse - 8-10-10-9-8-8)
(repeats)
E-7-6---------7-8---------------------
B-7-6---------7-8---------------------
G-8-7---------8-9---------------------
D-9-8---------9-10--------------------
A-9-8---------9-10--------------------
E-7-6---------7-8---------------------
(the B chord (7-9-9-8-7-7) is just a quick transition walk up/down chord)

Bridge
(from C chord from verse - 8-10-10-9-8-8)
(repeats and goes into chorus)
E-3-------------8---------------------
B-3-------------8---------------------
G-3-------------9---------------------
D-5-------------10--------------------
A-5-------------10--------------------
E-3-------------8---------------------

Better Together (2) by Jack Johnson

Tabbed by Teddy Wardak (used with permission, added 2/27/05)

Verse:
E	Eb/E  Cmin    B     A   Ab/A  F#min   B
e|--------------4-----------5-----------2-----7---|
B|--9-----9-----5-----4-----5-----------2-----7---|
G|--9-----9-----6-----4-----6-----6-----2-----8---|
D|--9-----9-----6-----4-----7-----7-----4-----9---|
A|--7--0--6--0--4--0--2--0--7-----7-----4-----9---|
E|--------------------------5--0--4--0--2--0--7---|

Chorus:
A   B

Well there is no combination of words that I could put on the back of a postcard
and no song that I could sing but I could try for your heart
and our dreams and real things and shoeboxes, photographs and sepia tone loving

Love is the answer, at least for most of the questions in my heart
like why are we here, and where do we go and how come it so hard
it's not always easy and sometimes life can be deceiving
I'll tell you one thing: it's always better when were together

A                      B
It's always better when were together
A			B
look at them stars when were together
A			B
it's always better when were together
A			B
it's always better when were together

and all of these moments just might find their way into my dreams tonight
but I know that they'll be gone when the morning light sings
and brings new things for tomorrow nights dreams
but they'll be gone too, too many things I have to do

if all of these dreams find their way to my day to day scenes
id be under the impression I was livin in a dream
if only two just me and you not so many things we've got to do
or people we've got to see, well sit beneath the mango tree

its always better when were together
look at them stars when were together
its always better when were together
its always better when were together
hmmm mmmm hmmmmmm....
hmmm mmmm hmmmmmm....