Autoscroll Speed
Start AutoscrollingStop Autoscrolling Decrease Autoscrolling speed1Increase Autoscrolling speed

Constellations by Jack Johnson

Tabbed by Fabio F.


Tuning: DADGBd

Capo I

T=Thumb

INTRO & OUTRO:

E---5p4h5/7\5p4p0---3-----7p5----0--------0---------------4p2----------||
B---------------------1-------6-----1--------1------3---------3--------|| 
G-----------------------2-------0-----0--------0------2---------2-p(0)-||  
D------------------------------(0)------2-----------0~--4--------------|| 
A-----------------------------------3~---------------------------------|| 
E—--5~--------------3~-------------------------------------------------||
    T

VERSE:

E-----5-5-7-7-5-5-4h5p0-0-0---0-0-0-0----------------------------------|
B-----0-0-0-0-0-0-0-0-0-0-0---0-0-0-1----------------------------------| 
G-----0-0-0-0-0-0-0-0-0-0-0---0-0-0-0----------------------------------|  
D-----------------------------------2----------------------------------|  
A-----------------------------------3----------------------------------| 
E—--5-------5-------5-------5------------------------------------------|
    T       T       T       T

PRECHORUS:

"...Their voices echoed across the waves, It's getting late..."

E-----------------------------------0---------------2------------------|
B-----------------------------------1---------------3------------------| 
G-----------------------------------0---------------2------------------|  
D-----------------------------------2---------------0------------------|  
A-----------------------------------3----------------------------------| 
E—---------------------------------------------------------------------|
   

CHORUS:

E---5---------------3-(5)-----------0---------------2------------------|
B---0---------------3---------------1---------------3------------------|
G---0---------------4---------------0---------------2------------------|
D---0---------------3---------------2---------------0------------------|
A---x---------------5---------------3----------------------------------|
E---5---------------3--------------------------------------------------|
    T


SOLO:

E------5----7----0----9----7----0-----2p0---------0----5p0----0----0h5-|
B----------------------------------------1---1-------------0---0-------|
G--------4/5—5\4-------7\5—5\4------------0h2-2/4------------4--4/5----|
D----------------------------------------------------------------------|
A----------------------------------------------------------------------|
E--(5)-----------------------------------------------------------------|


E------5----7----0----9-7p5-/7-5------5-2p0-----5------------4---------|
B--------------------------5-----5------------3---5--5p3-------3-------|
G--------4/5—5\4---------------------------/4------------0-------0-----|
D----------------------------------------------------------4-----------|
A----------------------------------------------------------------------|
E----------------------------------------------------------------------|

That's all!!!