Autoscroll Speed
Start AutoscrollingStop Autoscrolling Decrease Autoscrolling speed1Increase Autoscrolling speed

Crying Shame by Jack Johnson

Tabbed by Wes Cooke (taken from the jackjohnsonmusic.com/forums)

INTRO VERSE
e----2-----4---| e----4---------4--2--|
b----2-----4---| b----4---------5--4--|
g----2-----4---| g----4---------6--4--|X2
d----4-----6---| d----6---------6--4--|
a----4-----6---| a----6---------4--2--|
E----2-----4---| E---4----------------|

Repeat Intro

Chorus
e----4----2----0----4--|
b----5----4----0----4--|
g----6----4----2----4--|
d----6----4----2----6--|
a----4----2----0----6--|
E---------------------4--|

Fill 1

e---7-----7--7--7--7--------------------------------------|
b---7^----9--7--9--7--9~~------------------------------|
g-------------------------9~~--------------------------9~~~--|
d---------------------------------7--9/10--9--7-7------------|
a-------------------------------------------------------------|
E------------------------------------------------------------|

-----------------
---12^--11^--9^-9
---11^--11^--9^--
-----------------
-----------------
-----------------